Pretty Mary K

standard D tuning (DGCFAD)

t=10 e=11 w=12 h=13 f=15
D*     xx0ett   Gm*    xx0wet   Ddim xx0t9t
A7*    x0e989   Gm**   xx8786   A7** xx7685
F#m*   xx7675   Em*    xx5453   Edim xx5353
Csus4  333563   Csus4* 333553   Gm7  353333
G7sus4 353533   D      xx0232   Gm/D x55333
Bb7    x13131   A7     x02020   Gm   355333
A      x02220   A/G    3x2220   F#m  244222
G      320003   Em     022000   Bb*  xhfffh
F      x8ttt8   C      8tt988   Bb   688766
Bbm    688666   Dm     x57765   C7   x35353
Bb7*   x13134   C*     xxt988   G*   xx9787
Bm     x24432   E      022100   E7   020130

D*  Gm*  D*

D------------------------------------
A--2---3---5---7---8-s-10---12-s-14--
F------------------------------------
C--2---4---5---7---9-s-11---12-s-14--
G------------------------------------
D------------------------------------

D*        Gm*
almost forgot
Ddim       A7*
started to say
Gm**          A7**
rode into the sun
F#m*      Em*  Edim
past everyone

D--3------3------
A--5-p-3--5-s-6--
F--3------3------
C--5------5------
G----------------
D----------------
   hal-le-lu-jah,
 
Csus4 Csus4* Gm7 G7sus4  D
pret  -  ty  ma - ry     k
                 Gm/D  Bb7    A7
i found faith in the   infirmary
          Gm               A   A/G  F#m
there's a soldier lying in bed
                    G  Em  Gm7
with a wound to the head

D--3------3------
A--5-p-3--5-s-6--
F--3------3------
C--3------3------
G--5------5------
D--3------3------
 calling out to 

Csus4 Csus4* Gm7 G7sus4  Gm
pret  -  ty  ma - ry     k

D----------0----1--1--0-----
A--6-s-3---0----3--------3--
F----------1----1-----------
C--6-s-3---2----3-----------
G----------2----1-----------
D--6-s-3---0----------------

D------------------------------------
A--2---3---5---7---8-s-10---12-s-14--
F------------------------------------
C--2---4---5---7---9-s-11---12-s-14--
G------------------------------------
D------------------------------------

Bb*             F
here's what you get 

D---------------
A---------------
F---------------
C-----------10--
G--10-s-12------
D---------------
    
    C                            Bb  Bbm
for things that haven't happened yet

Bbm  Dm  Gm  C7  Bb7*  Bb7

D-----------------------
A--2---3---5---5s6---5--
F-----------------------
C--2---4---5---6s7---5--
G-----------------------
D-----------------------

D*         Gm*  Ddim       A7*
i happened upon pretty mary k
      Gm**         A7** C*         G*
but a soldier's uniform waved you away

D------------------
A------------------
F------------------
C------------------
G-----0--0h2--2h4--
D--3---------------

D                Gm/D Bb7             A7
i walk round the dock and talk to st. james
           Gm      A    A/G  Fm
though i'm already done
             G  Em  Gm7
and ask everyone 

D--3------3------
A--5-p-3--5-s-6--
F--3------3------
C--3------3------
G--5------5------
D--3------3------
"have you seen her?"

Csus4 Csus4* Gm7 G7sus4  Bm  /C#  /D  E  E7  Gm7
pret  -  ty  ma - ry     k

D--3------3------
A--5-p-3--5-s-6--
F--3------3------
C--3------3------
G--5------5------
D--3------3------
have you seen her?


Csus4 Csus4* Gm7 G7sus4  D
pret  -  ty  ma - ry     k

(while strumming D)
D--------------------------
A-----------------------3--
F-----------------------2--
C--0--------------------0--
G-----0--0-----0--1--3-----
D-----------3--------------
Loading Facebook Comments ...

Leave a Reply