Not Half Right

standard D tuning (DGCFAD)
(heatmiser version played in standard E tuning)

t=10, e=11, w=12

G/D    ttxwxx
Em7    x757xx
Dmaj7  x0x63x
Cadd9  x3x53x
A7     x0ewxx
G/D*   ttwxxx
C/G    332xxx
B7/F#  221xxx
A      x022xx
F      133xxx
Cadd9* x3203x


intro:    
---------------------------------------------------------------------------
----3---3---3---3---3---3---3---3---3---3---3---3---3---3---3---3---3---3--
--4---4---4---4---4---4---4---4---4---4-------4-------4-------4-------4----
------------------------------------------2-------2-------2-------2--------
---------------------------------------------------------------------------
---------------------------------------------------------------------------

-------------------------------------------------------------------
----3---3---3---3---3---3---3---3---3---3---3---3---3---3---3---3--
------6-------6-------6-------6-------5-------5-------5-------5----
-------------------------------------------------------------------
--0-------0-------0-------0-------3-------3-------3-------3--------
-------------------------------------------------------------------

-------------------------------------------------------------------
-------------------------------------------------------------------
----w---w---w---w---w---w---w---w---7---7---7---7---7---7---7---7--
--------------------------------------5-------5-------5-------5----
------t-------t-------t-------t---7-------7-------7-------7--------
--t-------t-------t-------t----------------------------------------

-------------------------------------------------------------------
------------------------------------3---3---3---3---3---3---3---3--
----w---w---w---w---w---w---w---w-----5-------5-------5-------5----
------e-------e-------e-------e------------------------------------
--0-------0-------0-------0-------3-------3-------3-------3--------
-------------------------------------------------------------------

(continue picking like in the intro)
G/D                            Em7                             Dmaj7
while you shouldn't doctor yourself  well, I pictured somebody else
                       Cadd9
someone that looks like what I look like
G/D                                Em7                                  A7
would you say that the one of your dreams got in you and ripped out the seams?
                    Cadd9
that's what I'd say, that's what I'd say

(strum with thumb)
G/D*  Em7  A7  

-----------------------------------
--------3--3--5--5/8--8--8/10--10--
--------5--5--5-------9--------11--
-----0-----------------------------
--3--------------3/7-----7/9-------
-----------------------------------

(resume picking)
G/D                             Em7                                  Dmaj7
he was a sucker for your double dose, motherfucker turned white as a ghost
                Cadd9
don't you say hi, don't you say hi
G/D                      Em7                                A7
with a broken sink for a face and a head that just takes up space
                   Cadd9
he's not half right, he's not half right

(thumb strumming)
C/G          B7/F#
it's already half past
A       F
and it won't last

-------------------------------------------------------------------
----3---3---3---3---3---3---3---3---3---3---3---3---3---3---3---3--
--4---4---4---4---4---4---4---4-------4-------4-------4-------4----
----------------------------------2-------2-------2-------2--------
-------------------------------------------------------------------
--3(let ring)------------------------------------------------------

-------------------------------------------------------------------
----3---3---3---3---3---3---3---3---3---3---3---3---3---3---3---3--
------6-------6-------6-------6-------5-------5-------5-------5----
-------------------------------------------------------------------
--0-------0-------0-------0-------3-------3-------3-------3--------
-------------------------------------------------------------------

G/D                      Em7                                  Dmaj7
i was sticking up for my friend when there's nothing much to defend
                 Cadd9
it's a lost fight, it's a lost fight
G/D                            Em7                                A7
'cos when I talk to you on the phone, well, it's just like being alone
                   Cadd9
it's not half right, it's not half right

G/D  Em7  A7  Cadd9*(strummed)




Loading Facebook Comments ...

1 thought on “Not Half Right”

Leave a Reply