My New Freedom

Unlike previous tabs, I used the Power Tab Editor to create this one. I felt it was necessary due to the complexity of the chord shapes and the fast picking. I suggest you download and install the free Power Tab Editor as it allows you to play back the tab while you learn it.

The version I tabbed was from the July 15, 1997 performance at the Olympia Theater in Olympia, WA. Please realize that the tab is not exact due to the fact that Elliott uses a strum/pick technique through much of the song (like on Angeles.) I suggest listening to the performance of the song while trying to learn it. I recommend downloading the Power Tab version of this tab but for those who don’t want to install the software I have included an html version which can be viewed in your web browser.

My New Freedom – Power Tab Version

Standard D Tuning DGCFAD
Capo 4

 4/4
  Gtr I
|---0-----0---0-----0-|---0-----0---0-----0-|---0-----0---0-3------|
|-----1---------1-----|-----1---------1-----|-----1-----4-----4b5r=|
|-------0---------0---|-------0---------0---|-------0--------------|
|---2---------2-------|---2---------2-------|---2------------------|
|-3---------3---------|-3---------3---------|-3---------2----------|
|---------------------|---------------------|----------------------|


|---------------------------------|---------------------------------|
|-------0-------3-------0-------0-|-------0-------3-------0-------0-|
|---5-------5-------5-------5-----|---5-------5-------5-------5-----|
|-----2-------2-------2-------2---|-----4-------4-------4-------4---|
|-0-------0-------0-------0-------|-0-------0-------0-------0-------|
|---------------------------------|---------------------------------|


|-----------------------------|---0-----0---0-3-5-|-5-5-----5---5-----5-|
|-------0-------3-------0-1-1-|-----1-----4-------|---------------------|
|---5-------5-------5---------|-------0-----------|-----5---------5-----|
|-----3-------3-------3-------|---2---------------|---2---2-----2---2---|
|-0-------0-------0-------3-2-|-3---------2-------|-0---------0---------|
|-----------------------------|-------------------|---------------------|


|---5-----5---5-----5-|---5-----5--------||----0-----0---0-3------|
|---------------------|------------------||o-----1-----4-----4b5r=|
|-----5---------5-----|-----5------------||--------0--------------|
|---4---4-----4---4---|---3---3----------||----2------------------|
|-0---------0---------|-0---------3--2-0-||o-3---------2----------|
|---------------------|------------------||-----------------------|


|---------------------------------|---------------------------------|
|-------0-------3-------0-------0-|-------0-------3-------0-------0-|
|---5-------5-------5-------5-----|---5-------5-------5-------5-----|
|-----2-------2-------2-------2---|-----4-------4-------4-------4---|
|-0-------0-------0-------0-------|-0-------0-------0-------0-------|
|---------------------------------|---------------------------------|


|------------------------------||---1--1-1---1--1-1-|---1--1-1---1--1-1--|
|-------0-------3-------0-1-1-o||---0--0-0---0--0-0-|---1--1-1---0--0-0--|
|---5-------5-------5----------||---0--0-0---0--0-0-|---2--2-2---0--0-0--|
|-----3-------3-------3--------||---0--------0------|---3--------0-------|
|-0-------0-------0-------3-2-o||-------------------|--------------------|
|------------------------------||-3--------3--------|-1--------3---------|


|---1--1-1---1--1-1-|--------------0--0-0-|---3--3-3-|---0-----0---0-3-5-|
|---0--0-0---1--1-1-|------6-------0--0-0-|---0--0-0-|-----1-----4-------|
|---0--0-0---2--2-2-|--------5-----0--0-0-|---0--0-0-|-------0-----------|
|---0--------3------|--------------2------|---0------|---2---------------|
|-------------------|----3-----3----------|----------|-3---------2-------|
|-3--------1--------|-/4---------0--------|-3--------|-------------------|


|-5-5-----5---5-----5-|---5-----5---5-----5-|---5-----5---------|
|---------------------|---------------------|-------------------|
|-----5---------5-----|-----5---------5-----|-----5-------------|
|---2---2-----2---2---|---4---4-----4---4---|---3---3-----------|
|-0---------0---------|-0---------0---------|-0---------3--2-0--|
|---------------------|---------------------|-------------------|


||--3---3s5-3-0--------|---0-0-0-0---0-----|---0-0-0-0---0-0-0-0--|
||o-1---1s3-1----3b4r0-|---1-1-1-1---1-4-5-|---3-3-3-3---3-3-3-3--|
||----2----------0-----|---2-2-2-2---2-5-6-|---4-4-4-4---4-4-4-4--|
||---------------------|---2-2-2-2---2-5-6-|---4-4-4-4---5-5-4-4--|
||o-3---------2--------|-0---------0---0-0-|-0---------0----------|
||---------------------|-------------------|----------------------|


  1.                     2.
|---1--1-1------------||---1--1-1------------|---1--1-1---1--1-1-|
|---1--1-1-----------o||---1--1-1------------|---0--0-0---0--0-0-|
|---2--2-2------------||---2--2-2------------|---0--0-0---0--0-0-|
|-3--------2-2-0h2-0--||-3--------2--0-------|---0--------0------|
|--------------------o||---------------3-2-0-|-------------------|
|---------------------||---------------------|-3--------3--------|


|---1--1-1---1--1-1-|---1--1-1---1--1-1-|--------------0--0-0-|
|---1--1-1---0--0-0-|---0--0-0---1--1-1-|------6-------0--0-0-|
|---2--2-2---0--0-0-|---0--0-0---2--2-2-|--------5-----0--0-0-|
|---3--------0------|---0--------3------|--------------2------|
|-------------------|-------------------|----3-----3----------|
|-1--------3--------|-3--------1--------|-/4---------0--------|


|---3--3-3-|---0-----0---0-3-5-|-5-5-----5---5-----5-|---5-----5---5-----5-|
|---0--0-0-|-----1-----4-------|---------------------|---------------------|
|---0--0-0-|-------0-----------|-----5---------5-----|-----5---------5-----|
|---0------|---2---------------|---2---2-----2---2---|---4---4-----4---4---|
|----------|-3---------2-------|-0---------0---------|-0---------0---------|
|-3--------|-------------------|---------------------|---------------------|


|---5-----5--------|---0-----0---0-3-----|----------------------------------|
|------------------|-----1-----4-----4b5r|=======0-------3-------0-------0--|
|-----5------------|-------0-------------|---5-------5-------5-------5------|
|---3---3----------|---2-----------------|-----2-------2-------2-------2----|
|-0---------3--2-0-|-3---------2---------|-0-------0-------0-------0--------|
|------------------|---------------------|----------------------------------|


|---------------------------------|------------------------------|
|-------0-------3-------0-------0-|-------0-------3-------0-1-1--|
|---5-------5-------5-------5-----|---5-------5-------5----------|
|-----4-------4-------4-------4---|-----3-------3-------3--------|
|-0-------0-------0-------0-------|-0-------0-------0-------3-2--|
|---------------------------------|------------------------------|


|---1--1-1---1--1-1-|---1--1-1---1--1-1-|---1--1-1---1--1-1-|
|---0--0-0---0--0-0-|---1--1-1---0--0-0-|---0--0-0---1--1-1-|
|---0--0-0---0--0-0-|---2--2-2---0--0-0-|---0--0-0---2--2-2-|
|---0--------0------|---3--------0------|---0--------3------|
|-------------------|-------------------|-------------------|
|-3--------3--------|-1--------3--------|-3--------1--------|


|--------------0--0-0-|---3--3-3-|---0-----0---0-3-5-|-5-5-----5---5-----5-|
|------6-------0--0-0-|---0--0-0-|-----1-----4-------|---------------------|
|--------5-----0--0-0-|---0--0-0-|-------0-----------|-----5---------5-----|
|--------------2------|---0------|---2---------------|---2---2-----2---2---|
|----3-----3----------|----------|-3---------2-------|-0---------0---------|
|-/4---------0--------|-3--------|-------------------|---------------------|


|---5-----5---5-----5-|---5-----5--------|
|---------------------|------------------|
|-----5---------5-----|-----5------------|
|---4---4-----4---4---|---3---3----------|
|-0---------0---------|-0---------3--2-0-|
|---------------------|------------------|


|-------0-------0-------0-------0-|-------0-------0-------0-------0-|
|---1---1---1---1---0---0---0---0-|---1---1---1---1---0---0---0---0-|
|---0-------0-------1-------1-----|---2-------2-------0-------0-----|
|-----2-------2-------2-------2---|-----2-------2-------2-------2---|
|-3-------3-----------------------|-0-------0-----------------------|
|-----------------0-------0-------|-----------------0-------0-------|


|-------1-------1-------0-------|-------|
|---1---1---1---1---0---0---3---|-^1----|
|---2-------2-------1-------1---|-^2----|
|-----3-------3-------0---------|-^2----|
|-------------------------------|-^0----|
|-1-------1-------0-------0-----|-------|
Loading Facebook Comments ...

Leave a Reply