L.A. Extended Live Intro

standard D tuning DGCFAD

the intro is played in fast triplets like the intro to tomorrow tomorrow.
the high string is played using the index and middle fingers while the 
other three are played with the thumb.

----7-7---7-7---7-7---7-7---7-7---7-7---7-7---7-7---7-7---7-7---9-9---7-7--
--------------7-----------------7-----------------7-----------------7------
--------8-----------------8-----------------8-----------------8------------
--9-----------------9-----------------9-----------------9------------------
---------------------------------------------------------------------------
---------------------------------------------------------------------------

---11-11-11-11-11-11-11-11-11-11-11-11-11-11---7-7---7-7---
--------------7-----------------7------------------7-------
--------8-----------------8------------------8-------------
--9-----------------9-----------------9--------------------
-----------------------------------------------------------
-----------------------------------------------------------

----7-7---7-7---7-7---7-7---7-7---7-7---7-7---7-7---7-7---7-7---7-7---7-7--
--------------8-----------------8-----------------7-----------------7------
--------9-----------------9-----------------7-----------------7------------
--9-----------------9-----------------7-----------------7------------------
---------------------------------------------------------------------------
---------------------------------------------------------------------------

----7-7---7-7---7-7---7-7---7-7---7-7---8-8---8-8---8-8---8-8---8-8---8-8--
--------------5-----------------5-----------------5-----------------5------
--------5-----------------5-----------------5-----------------5------------
--5-----------------5-----------------5-----------------5------------------
---------------------------------------------------------------------------
---------------------------------------------------------------------------

----8-8---8-8---8-8---8-8---8-8---8-8---7-7---7-7---7-7---7-7---7-7---7-7--
--------------4-----------------4-----------------4-----------------4------
--------5-----------------5-----------------4-----------------4------------
--4-----------------4-----------------4-----------------4------------------
---------------------------------------------------------------------------
---------------------------------------------------------------------------

----3-3---3-3---3-3---3-3---3-3---3-3---2-2---2-2---2-2---2-2---2-2---2-0--
--------------0-----------------0-----------------3-----------------3------
--------0-----------------0-----------------2-----------------2------------
--2-----------------2-----------------0-----------------0------------------
---------------------------------------------------------------------------
---------------------------------------------------------------------------

----2-2---2-2---0-0---3-3---0-0---0-0---2-2---2-2----2-2------2------------
--------1-----1-----------1-----1-------------------------0----------------
---------------------------------------------------2-----------------------
--------------------------------------------1------------------------------
--3-----------------3-----------------2------------------------------------
---------------------------------------------------------------------------

Loading Facebook Comments ...

Leave a Reply