Whatever (Folk Song in C)

standard E tuning (EADGBE)

C     x32010
F/C   x33211
D7/F# 2xx121
G     320003
Am    x02210
Asus4 x02230 (bend second string with pinky)


intro/verse
 C        F/C        C           /A  D7/F#     G  C        F/C      C       /A  G           C
-0-----------------------0------------------------0-----0--------------------------------------
----1-------------1--1------1--1--------0h1-0--0-----1-----------1--1-----------------------1--
-------0-----0h2------------------------0h2-0--0--------0----0h2------------------------0h2----
----------------------------------------------------------------------------------0h2h3--------
-3-----3---3---------3---3-----3--0---------------3-----3--3--------3--------0--------------3--
-------------------------------------2---------3--------------------------------3--------------

C                           F/C        C         
they come here alone and they leave in twos
                            /A D7/F#   G     
except for you and me who just came to use
C                          F/C         C
if you're all done like you said you'd be
               /A G                 C
what are you doin' hangin' out with me
C                             F/C        C  
why you tell me stuff thats so plainly untrue
                                    /A D7/F#           G     
if you'll be straight with me, I'll be straighter with you
C                          F/C         C
if you're all done like you said you'd be
               /A G                 C
what are you doin' hangin' out with me
Am                        Asus4 Am    F/C  C
I haven't wanted to do anything for a long time
                                  /A D7/F#            G 
but whatever you got right now would probably suit me fine
C                          F/C         C
if you're all done like you said you'd be
               /A G                 C
what are you doin' hangin' out with me

C  F/C  C  /A D7/F#  G  Am                     F/C  C  /A G  C
(like intro)          --3--1--0--0--0-------
                      --------------1h3--1--
                      ----------------------
                      ----------------------
                      ----------------------
                      ----------------------

Am                        Asus4 Am    F/C  C
I haven't wanted to do anything for a long time
                       /A D7/F#                  G                
whatever you're doin' now would probably suit me fine
Am                         F/C         C
if you're all done like you said you'd be
               /A G                 C
what are you doin' hangin' out with me
               /A G                 F/C  C
what are you doin' hangin' out with me
Loading Facebook Comments ...

Leave a Reply