See You Later

open C tuning (CGCEGC)

   A    C+9  G    C+9  G    C+9  G
C-------7----7----7----7----7----7-------------------------
G--9---p7----7----7----7----7----7-------------------------
E--9---p7h8--7----7h8--7----7h8--7-------------------------
C--9---p7----7----7----7----7----7-------------------------
G-------7h9--7----7h9--7----7h9--7-------------------------
C-------7----7----7----7----7----7-------------------------
                                    I got a choke chain

   C+9          G         A   G C                G     /F#
C--7------------7---------------0----------------7---------
G--7------------7---------------0----------------7---------
E--8------------7---------------0----------------7---------
C--7------------7---------9---7p0----------------7---------
G--9------------7---------9---7p0----------------7---------
C--7------------7---------9---7p0----------------7-----\6--
    made out of night train, to keep your memory down

   Em      G/D            A7   C   A                   A G  C
C-----------2-------------1----0--/9----------------------------
G--4--------4-------------2----0--/9----------------------------
E--3--------3-------------3----0--/9-------------------9\7--12--
C--4--------2-------------1----0--/9-------------------9\7--12--
G-----------4-------------2----0--/9-------------------9\7--12--
C--4--------2-------------1----0--/9-------------------9\7--12--
   in quick sand from the main man to drown everything out

   C+9       G    
C--7----7----7-------------------------
G--7----7----7-------------------------
E--8---p7h8--7-------------------------
C--7----7----7-------------------------
G--9---p7h9--7-------------------------
C--7----7----7-------------------------
              we were out on a joyride

   C+9           G   A  G C           G         /F#
C--7-------------7--------0-----------7--------------
G--7-------------7--------0-----------7--------------
E--8-------------7--------0-----------7--------------
C--7-------------7---9--7p0-----------7--------------
G--9-------------7---9--7p0-----------7--------------
C--7-------------7---9--7p0-----------7----------\6--
    laid up from insides, always at a dead stall

   Em           G/D        A7        C            G/B         A  Asus4  B
C----------------2---------1---------0-------------2----------9-------------
G--4-------------4---------2---------0-------------4----------9-------------
E--3-------------3---------3---------0-------------3----------9-h10p9--/11--
C--4-------------2---------1---------0-------------2----------9--------/11--
G----------------4---------2---------0-------------4----------9--------/11--
C--4-------------2---------1---------0------------------------9--------/11--
   from sticking pins into miniature men who can't feel it at all

   C              D              G    G/F#        Em /B A               B   C
C--0--------------2--------------7-----7---------------/9-----------------------
G--0--------------2--------------7-----7----------4----/9-----------------------
E--0--------------2--------------7-----7----------3----/9-------h10p9--/11-/12--
C--0--------------2--------------7-----7----------4----/9--------------/11-/12--
G--0--------------2--------------7-----7--------------4/9--------------/11-/12--
C--0--------------2--------------7-----6----------4----/9--------------/11-/12--
    see you later, see you later, if i see you at all,   see you later

   C+9       G    C+9  G    C+9  G
C--7----7----7----7----7----7----7-------------------------
G--7----7----7----7----7----7----7-------------------------
E--8---p7h8--7----7h8--7----7h8--7-------------------------
C--7----7----7----7----7----7----7-------------------------
G--9---p7h9--7----7h9--7----7h9--7-------------------------
C--7----7----7----7----7----7----7-------------------------
                                    walked through the thick mud... 

C+9        G       A   
lookin for new blood
G C                    G   /F#
  thinkin i heard your name
Em     G/D A7 C  A                A G C  C+9
cruel imagination still givin me pain
G                        C+9  G  A  
just to find you with your masterminder
G C              G     /F#
  running your affairs
Em     G/D    A7        C
saying how he loves you now
       G/B          A       Asus4  B
let me show you how much i care

   C              D              G    G/F#        Em /B
C--0--------------2--------------7-----7-------------------
G--0--------------2--------------7-----7----------4--------
E--0--------------2--------------7-----7----------3--------
C--0--------------2--------------7-----7----------4--------
G--0--------------2--------------7-----7--------------4-4--
C--0--------------2--------------7-----6----------4--------
    see you later, see you later, if i see you at all

   C              D              G    G/F#        Em /B
C--0--------------2--------------7-----7-------------------
G--0--------------2--------------7-----7----------4--------
E--0--------------2--------------7-----7----------3--------
C--0--------------2--------------7-----7----------4--------
G--0--------------2--------------7-----7--------------4-4--
C--0--------------2--------------7-----6----------4--------
    see you later, see you later, if i see you at all

   C              D              G    G/F#        E   /B
C--0--------------2--------------7-----7----------4--------
G--0--------------2--------------7-----7----------4--------
E--0--------------2--------------7-----7----------4--------
C--0--------------2--------------7-----7----------4--------
G--0--------------2--------------7-----7----------4---4-4--
C--0--------------2--------------7-----6----------4--------
    see you later, see you later, if i see you at all

    A               B   C
C--/9-----------------------
G--/9-----------------------
E--/9-------h10p9--/11-/12--
C--/9--------------/11-/12--
G--/9--------------/11-/12--
C--/9--------------/11-/12--
     see you later

   C+9       G    C+9  G    C+9  G    C+9  G
C--7----7----7----7----7----7----7----7----7--
G--7----7----7----7----7----7----7----7----7--
E--8---p7h8--7----7h8--7----7h8--7----7h8--7--
C--7----7----7----7----7----7----7----7----7--
G--9---p7h9--7----7h9--7----7h9--7----7h9--7--
C--7----7----7----7----7----7----7----7----7--

Loading Facebook Comments ...

Leave a Reply