Son of Sam

standard tuning (acoustic version tuned down a step)

Am   x02210  D9    x02532
D7   x5453x  F/C   x33211
E    022100  C/G   332010
B7   x2120x  F     133211
A7   x02223  F*    x8ttt8
D7*  xx7778  F6    xxtttt
F7   xxttte  A     x02220
D7** xx0212  G*    3200xx
Ab*  4300xx  Asus4 x02230

intro
----3-5-5-3--------------3--5--5/8--7p5---------------------------------0-------0--
--5---------5--5p3----5------------------7---7--5------3--3------1--1h3---3--1--0--
--5---------5------5--5----------------------4----4h6--0----2h4--2-----------2--1--
--0---------0---------0----------------------4---------0---------0-----------0--2--
-----------------------------------------5---4---------2------------------------2--
--5---------4---------5------------------5---4---------3---------2-----------1--0--

Am                           D9
something’s happening, don’t speak to soon
D7                      F/C                 E  
i told the boss off and made my move, got nowhere to go
       Am              E       F/C               C/G   B7 F
son of sam, son of the shining path, the clouded mind
Am         E      F/C            C/G  B7 F
the couple killer each and every time

        
----3-5-5-3--------------
--5---------5-----5\3-1--
--5---------5--1---------
--0---------0--2---------
---------------2---------
--5---------4--0---------

Am                   D9
i’m not uncomfortable feeling weird
D7                     F/C                   E
lonely leered, options disappear, but i know what to do
       Am            E        F/C              C/G  B7 F
son of sam, son of a doctor’s touch, a nurse’s love
Am     E     F/C         C/G   B7 F
acting under orders from above

A7  F*  D7*  F6  F7

A          F   D7**  F  G* Ab*
king for a day

A Asus4 A D9  D7  F/C  E

       Am              E       F/C               C/G   B7 F
son of sam, son of the shining path, the clouded mind
Am         E      F/C            C/G  B7 F
the couple killer running out of time

replay intro

(5x055x)        (4x055x)
shiva opens her arms now
        (5x550x)             (5x440x)
to make sure i don’t get too far
      (4x440x)                (32040x)                  (2x020x)
i may talk in my sleep tonight ‘cos i don’t know what i am
                 (1x020x)           E   Am
i’m a little like you, more like son of sam
                        
                      F/C E  A
-----------------------1----------
-----------------------1----------
--------------------0--2--1--2----
-----------0--2--3-----3--2--2----
--0--2--3--------------3--2--0----
--------------------------0-------
Loading Facebook Comments ...

Leave a Reply